  0
SECTION
  2
HEADER
  9
$ACADVER
  1
AC1009
  9
$INSBASE
 10
0
 20
0
 30
0
  9
$EXTMIN
 10
0
 20
0
  9
$EXTMAX
 10
800000
 20
565856
  9
$LIMMIN
 10
0
 20
0
  9
$LIMMAX
 10
800000
 20
565856
  9
$LTSCALE
 40
8
  0
ENDSEC
  0
SECTION
  2
TABLES
  0
TABLE
  2
LTYPE
 70
     9
  0
LTYPE
  2
CONTINUOUS
 70
    64
  3
実線
 72
    65
 73
     0
 40
0.0
  0
LTYPE
  2
DASHED1
 70
    64
  3
--  --  --  --  --  --  --  --  
 72
    65
 73
     2
 40
2.5
 49
1.25
 49
-1.25
  0
LTYPE
  2
DASHED2
 70
    64
  3
----    ----    ----    ----    
 72
    65
 73
     2
 40
5.0
 49
2.5
 49
-2.5
  0
LTYPE
  2
DASHED3
 70
    64
  3
------  ------  ------  ------  
 72
    65
 73
     2
 40
5.0
 49
3.75
 49
-1.25
  0
LTYPE
  2
CENTER1
 70
    64
  3
----- - ----- - ----- - ----- - 
 72
    65
 73
     4
 40
10.0
 49
6.25
 49
-1.25
 49
1.25
 49
-1.25
  0
LTYPE
  2
CENTER2
 70
    64
  3
----------  --  ----------  --  
 72
    65
 73
     4
 40
20.0
 49
12.5
 49
-2.5
 49
2.5
 49
-2.5
  0
LTYPE
  2
PHANTOM1
 70
    64
  3
--- - - --- - - --- - - --- - - 
 72
    65
 73
     6
 40
10.0
 49
3.25
 49
-1.25
 49
1.25
 49
-1.25
 49
1.25
 49
-1.25
  0
LTYPE
  2
PHANTOM2
 70
    64
  3
--------  -  -  --------  -  -  
 72
    65
 73
     6
 40
20.0
 49
10.0
 49
-2.5
 49
1.25
 49
-2.5
 49
1.25
 49
-2.5
  0
LTYPE
  2
DOT
 70
    64
  3
-   -   -   -   -   -   -   -   
 72
    65
 73
     2
 40
2.5
 49
0.625
 49
-1.875
  0
LTYPE
  2
DUMMY
 70
    64
  3
ダミー
 72
    65
 73
     0
 40
0.0
  0
LTYPE
  2
RAND1
 70
    64
  3
ランダム線1
 72
    65
 73
     4
 40
10.0
 49
1.0
 49
-2.0
 49
3.0
 49
-4.0
  0
LTYPE
  2
RAND2
 70
    64
  3
ランダム線2
 72
    65
 73
     4
 40
14.0
 49
2.0
 49
-3.0
 49
4.0
 49
-5.0
  0
LTYPE
  2
RAND3
 70
    64
  3
ランダム線3
 72
    65
 73
     4
 40
18.0
 49
3.0
 49
-4.0
 49
5.0
 49
-6.0
  0
LTYPE
  2
RAND4
 70
    64
  3
ランダム線4
 72
    65
 73
     4
 40
22.0
 49
4.0
 49
-5.0
 49
6.0
 49
-7.0
  0
LTYPE
  2
RAND5
 70
    64
  3
ランダム線5
 72
    65
 73
     4
 40
26.0
 49
5.0
 49
-6.0
 49
7.0
 49
-8.0
  0
LTYPE
  2
LONG1
 70
    64
  3
----------  --  ----------  --  
 72
    65
 73
     4
 40
40.0
 49
32.5
 49
-2.5
 49
2.5
 49
-2.5
  0
LTYPE
  2
LONG2
 70
    64
  3
--------  -  -  --------  -  -  
 72
    65
 73
     6
 40
40.0
 49
30.0
 49
-2.5
 49
1.25
 49
-2.5
 49
1.25
 49
-2.5
  0
LTYPE
  2
LONG3
 70
    64
  3
+++++++++++++++..+++++++++++++++
 72
    65
 73
     2
 40
40.0
 49
37.5
 49
-2.5
  0
LTYPE
  2
LONG4
 70
    64
  3
+++++++++++++++..+++++++++++++++
 72
    65
 73
     2
 40
80.0
 49
75.0
 49
-5.0
  0
LTYPE
  2
LONG5
 70
    64
  3
----------  --  ----------  --  
 72
    65
 73
     4
 40
60.0
 49
37.5
 49
-7.5
 49
7.5
 49
-7.5
  0
LTYPE
  2
dashed
 70
   64
  3
-------   -------------   ------
 72
   65
 73
    2
 40
7.5
 49
6
 49
-1.5
  0
LTYPE
  2
dashed_spaced
 70
   64
  3
----        --------        ----
 72
   65
 73
    2
 40
12
 49
6
 49
-6
  0
LTYPE
  2
long_dashed_dotted
 70
   64
  3
------------- --- --------------
 72
   65
 73
    4
 40
15.25
 49
12
 49
-1.5
 49
0.25
 49
-1.5
  0
LTYPE
  2
long_dashed_double-dotted
 70
   64
  3
----------- --- --- ------------
 72
   65
 73
    6
 40
17
 49
12
 49
-1.5
 49
0.25
 49
-1.5
 49
0.25
 49
-1.5
  0
LTYPE
  2
long_dashed_triplicate-dotted
 70
   64
  3
--------- --- --- --- ----------
 72
   65
 73
    8
 40
18.75
 49
12
 49
-1.5
 49
0.25
 49
-1.5
 49
0.25
 49
-1.5
 49
0.25
 49
-1.5
  0
LTYPE
  2
dotted
 70
   64
  3
   -       -       -       -    
 72
   65
 73
    2
 40
1.75
 49
0.25
 49
-1.5
  0
LTYPE
  2
chain
 70
   64
  3
-------------- -- --------------
 72
   65
 73
    4
 40
18.5
 49
12
 49
-1.5
 49
3.5
 49
-1.5
  0
LTYPE
  2
chain_double_dash
 70
   64
  3
------------ -- -- -------------
 72
   65
 73
    6
 40
23.5
 49
12
 49
-1.5
 49
3.5
 49
-1.5
 49
3.5
 49
-1.5
  0
LTYPE
  2
dashed_dotted
 70
   64
  3
-----------     -     ----------
 72
   65
 73
    4
 40
9.25
 49
6
 49
-1.5
 49
0.25
 49
-1.5
  0
LTYPE
  2
double-dashed_dotted
 70
   64
  3
------   -----------   -   -----
 72
   65
 73
    6
 40
16.75
 49
6
 49
-1.5
 49
6
 49
-1.5
 49
0.25
 49
-1.5
  0
LTYPE
  2
dashed_double-dotted
 70
   64
  3
---------    -    -    ---------
 72
   65
 73
    6
 40
11
 49
6
 49
-1.5
 49
0.25
 49
-1.5
 49
0.25
 49
-1.5
  0
LTYPE
  2
double-dashed_double-dotted
 70
   64
  3
-----   ---------   -   -   ----
 72
   65
 73
    8
 40
18.5
 49
6
 49
-1.5
 49
6
 49
-1.5
 49
0.25
 49
-1.5
 49
0.25
 49
-1.5
  0
LTYPE
  2
dashed_triplicate-dotted
 70
   64
  3
-------    -    -    -    ------
 72
   65
 73
    8
 40
12.75
 49
6
 49
-1.5
 49
0.25
 49
-1.5
 49
0.25
 49
-1.5
 49
0.25
 49
-1.5
  0
LTYPE
  2
double-dashed_triplicate-dotted
 70
   64
  3
-----  ---------  -  -  -  -----
 72
   65
 73
   10
 40
20.25
 49
6
 49
-1.5
 49
6
 49
-1.5
 49
0.25
 49
-1.5
 49
0.25
 49
-1.5
 49
0.25
 49
-1.5
  0
LTYPE
  2
undefined
 70
   64
  3
--------------------------------
 72
   65
 73
    0
 40
0
  0
LTYPE
  2
_
 70
   64
  3
                                
 72
   65
 73
    0
 40
0
  0
LTYPE
  2
__18
 70
   64
  3
                                
 72
   65
 73
    0
 40
0
  0
LTYPE
  2
__19
 70
   64
  3
                                
 72
   65
 73
    0
 40
0
  0
LTYPE
  2
__20
 70
   64
  3
                                
 72
   65
 73
    0
 40
0
  0
LTYPE
  2
__21
 70
   64
  3
                                
 72
   65
 73
    0
 40
0
  0
LTYPE
  2
__22
 70
   64
  3
                                
 72
   65
 73
    0
 40
0
  0
LTYPE
  2
__23
 70
   64
  3
                                
 72
   65
 73
    0
 40
0
  0
LTYPE
  2
__24
 70
   64
  3
                                
 72
   65
 73
    0
 40
0
  0
LTYPE
  2
__25
 70
   64
  3
                                
 72
   65
 73
    0
 40
0
  0
LTYPE
  2
__26
 70
   64
  3
                                
 72
   65
 73
    0
 40
0
  0
LTYPE
  2
__27
 70
   64
  3
                                
 72
   65
 73
    0
 40
0
  0
LTYPE
  2
__28
 70
   64
  3
                                
 72
   65
 73
    0
 40
0
  0
LTYPE
  2
__29
 70
   64
  3
                                
 72
   65
 73
    0
 40
0
  0
LTYPE
  2
__30
 70
   64
  3
                                
 72
   65
 73
    0
 40
0
  0
LTYPE
  2
__31
 70
   64
  3
                                
 72
   65
 73
    0
 40
0
  0
LTYPE
  2
__32
 70
   64
  3
                                
 72
   65
 73
    0
 40
0
  0
ENDTAB
  0
TABLE
  2
STYLE
  5
3
100
AcDbSymbolTable
 70
     1
  0
STYLE
  5
10
100
AcDbSymbolTableRecord
100
AcDbTextStyleTableRecord
  2
STANDARD
 70
     0
 40
0.0
 41
1.0
 50
0.0
 71
     0
 42
0.2
  3
txt
  4
bigfont.shx
  0
STYLE
  5
26
100
AcDbSymbolTableRecord
100
AcDbTextStyleTableRecord
  2
TATEGAKI
 70
    68
 40
0.0
 41
1.0
 50
0.0
 71
     0
 42
1.0
  3
txt
  4
bigfont.shx
  0
ENDTAB
  0
TABLE
  2
LAYER
 70
    2
  0
LAYER
  2
_0-0_
 70
   64
 62
    7
  6
CONTINUOUS
  0
LAYER
  2
ADD_LINE
 70
   64
 62
    7
  6
CONTINUOUS
  0
ENDTAB
  0
ENDSEC
  0
SECTION
  2
BLOCKS
  0
ENDSEC
  0
SECTION
  2
ENTITIES
  0
LINE
  8
_0-0_
  6
CONTINUOUS
 62
    4
 10
392370
 20
280051.63177319168
 11
393270
 21
280051.63177319168
  0
LINE
  8
_0-0_
  6
CONTINUOUS
 62
    4
 10
392370
 20
280051.63177319168
 11
392370
 21
280951.63177319168
  0
LINE
  8
_0-0_
  6
CONTINUOUS
 62
    4
 10
393270
 20
280051.63177319168
 11
393270
 21
280951.63177319168
  0
LINE
  8
_0-0_
  6
CONTINUOUS
 62
    4
 10
392370
 20
280951.63177319168
 11
393270
 21
280951.63177319168
  0
LINE
  8
_0-0_
  6
CONTINUOUS
 62
    4
 10
393467.48769393074
 20
280051.63177319168
 11
393517.48769393074
 21
280051.63177319168
  0
LINE
  8
_0-0_
  6
CONTINUOUS
 62
    4
 10
393467.48769393074
 20
280051.63177319168
 11
393467.48769393074
 21
280951.63177319168
  0
LINE
  8
_0-0_
  6
CONTINUOUS
 62
    4
 10
393517.48769393074
 20
280051.63177319168
 11
393517.48769393074
 21
280951.63177319168
  0
LINE
  8
_0-0_
  6
CONTINUOUS
 62
    4
 10
393467.48769393074
 20
280951.63177319168
 11
393517.48769393074
 21
280951.63177319168
  0
LINE
  8
_0-0_
  6
CONTINUOUS
 62
    4
 10
392370
 20
280001.63177319168
 11
392370
 21
279951.63177319168
  0
LINE
  8
_0-0_
  6
CONTINUOUS
 62
    4
 10
393270
 20
280001.63177319168
 11
393270
 21
279951.63177319168
  0
LINE
  8
_0-0_
  6
CONTINUOUS
 62
    4
 10
392370
 20
279951.63177319168
 11
393270
 21
279951.63177319168
  0
LINE
  8
_0-0_
  6
CONTINUOUS
 62
    4
 10
392372.5982910156
 20
279951.63177319168
 11
392372.5982910156
 21
279951.63177319168
  0
LINE
  8
_0-0_
  6
CONTINUOUS
 62
    4
 10
392372.5982910156
 20
279951.63177319168
 11
392372.55881713674
 21
279952.0829616916
  0
LINE
  8
_0-0_
  6
CONTINUOUS
 62
    4
 10
392372.55881713674
 20
279952.0829616916
 11
392372.44159489404
 21
279952.52044105722
  0
LINE
  8
_0-0_
  6
CONTINUOUS
 62
    4
 10
392372.44159489404
 20
279952.52044105722
 11
392372.25018602598
 21
279952.93091869948
  0
LINE
  8
_0-0_
  6
CONTINUOUS
 62
    4
 10
392372.25018602598
 20
279952.93091869948
 11
392371.99040639412
 21
279953.30192246288
  0
LINE
  8
_0-0_
  6
CONTINUOUS
 62
    4
 10
392371.99040639412
 20
279953.30192246288
 11
392371.6701492712
 21
279953.6221795858
  0
LINE
  8
_0-0_
  6
CONTINUOUS
 62
    4
 10
392371.6701492712
 20
279953.6221795858
 11
392371.2991455078
 21
279953.88195921766
  0
LINE
  8
_0-0_
  6
CONTINUOUS
 62
    4
 10
392371.2991455078
 20
279953.88195921766
 11
392370.88866786554
 21
279954.07336808572
  0
LINE
  8
_0-0_
  6
CONTINUOUS
 62
    4
 10
392370.88866786554
 20
279954.07336808572
 11
392370.45118849992
 21
279954.19059032842
  0
LINE
  8
_0-0_
  6
CONTINUOUS
 62
    4
 10
392370.45118849992
 20
279954.19059032842
 11
392370
 21
279954.23006420728
  0
LINE
  8
_0-0_
  6
CONTINUOUS
 62
    4
 10
392370
 20
279954.23006420728
 11
392369.54881150008
 21
279954.19059032842
  0
LINE
  8
_0-0_
  6
CONTINUOUS
 62
    4
 10
392369.54881150008
 20
279954.19059032842
 11
392369.11133213446
 21
279954.07336808572
  0
LINE
  8
_0-0_
  6
CONTINUOUS
 62
    4
 10
392369.11133213446
 20
279954.07336808572
 11
392368.7008544922
 21
279953.88195921766
  0
LINE
  8
_0-0_
  6
CONTINUOUS
 62
    4
 10
392368.7008544922
 20
279953.88195921766
 11
392368.3298507288
 21
279953.6221795858
  0
LINE
  8
_0-0_
  6
CONTINUOUS
 62
    4
 10
392368.3298507288
 20
279953.6221795858
 11
392368.00959360588
 21
279953.30192246288
  0
LINE
  8
_0-0_
  6
CONTINUOUS
 62
    4
 10
392368.00959360588
 20
279953.30192246288
 11
392367.74981397402
 21
279952.93091869948
  0
LINE
  8
_0-0_
  6
CONTINUOUS
 62
    4
 10
392367.74981397402
 20
279952.93091869948
 11
392367.55840510596
 21
279952.52044105722
  0
LINE
  8
_0-0_
  6
CONTINUOUS
 62
    4
 10
392367.55840510596
 20
279952.52044105722
 11
392367.44118286326
 21
279952.0829616916
  0
LINE
  8
_0-0_
  6
CONTINUOUS
 62
    4
 10
392367.44118286326
 20
279952.0829616916
 11
392367.4017089844
 21
279951.63177319168
  0
LINE
  8
_0-0_
  6
CONTINUOUS
 62
    4
 10
392367.4017089844
 20
279951.63177319168
 11
392367.44118286326
 21
279951.18058469176
  0
LINE
  8
_0-0_
  6
CONTINUOUS
 62
    4
 10
392367.44118286326
 20
279951.18058469176
 11
392367.55840510596
 21
279950.74310532614
  0
LINE
  8
_0-0_
  6
CONTINUOUS
 62
    4
 10
392367.55840510596
 20
279950.74310532614
 11
392367.74981397402
 21
279950.33262768388
  0
LINE
  8
_0-0_
  6
CONTINUOUS
 62
    4
 10
392367.74981397402
 20
279950.33262768388
 11
392368.00959360588
 21
279949.96162392048
  0
LINE
  8
_0-0_
  6
CONTINUOUS
 62
    4
 10
392368.00959360588
 20
279949.96162392048
 11
392368.3298507288
 21
279949.64136679756
  0
LINE
  8
_0-0_
  6
CONTINUOUS
 62
    4
 10
392368.3298507288
 20
279949.64136679756
 11
392368.7008544922
 21
279949.3815871657
  0
LINE
  8
_0-0_
  6
CONTINUOUS
 62
    4
 10
392368.7008544922
 20
279949.3815871657
 11
392369.11133213446
 21
279949.19017829763
  0
LINE
  8
_0-0_
  6
CONTINUOUS
 62
    4
 10
392369.11133213446
 20
279949.19017829763
 11
392369.54881150008
 21
279949.07295605494
  0
LINE
  8
_0-0_
  6
CONTINUOUS
 62
    4
 10
392369.54881150008
 20
279949.07295605494
 11
392370
 21
279949.03348217608
  0
LINE
  8
_0-0_
  6
CONTINUOUS
 62
    4
 10
392370
 20
279949.03348217608
 11
392370.45118849992
 21
279949.07295605494
  0
LINE
  8
_0-0_
  6
CONTINUOUS
 62
    4
 10
392370.45118849992
 20
279949.07295605494
 11
392370.88866786554
 21
279949.19017829763
  0
LINE
  8
_0-0_
  6
CONTINUOUS
 62
    4
 10
392370.88866786554
 20
279949.19017829763
 11
392371.2991455078
 21
279949.3815871657
  0
LINE
  8
_0-0_
  6
CONTINUOUS
 62
    4
 10
392371.2991455078
 20
279949.3815871657
 11
392371.6701492712
 21
279949.64136679756
  0
LINE
  8
_0-0_
  6
CONTINUOUS
 62
    4
 10
392371.6701492712
 20
279949.64136679756
 11
392371.99040639412
 21
279949.96162392048
  0
LINE
  8
_0-0_
  6
CONTINUOUS
 62
    4
 10
392371.99040639412
 20
279949.96162392048
 11
392372.25018602598
 21
279950.33262768388
  0
LINE
  8
_0-0_
  6
CONTINUOUS
 62
    4
 10
392372.25018602598
 20
279950.33262768388
 11
392372.44159489404
 21
279950.74310532614
  0
LINE
  8
_0-0_
  6
CONTINUOUS
 62
    4
 10
392372.44159489404
 20
279950.74310532614
 11
392372.55881713674
 21
279951.18058469176
  0
LINE
  8
_0-0_
  6
CONTINUOUS
 62
    4
 10
392372.55881713674
 20
279951.18058469176
 11
392372.5982910156
 21
279951.63177319168
  0
LINE
  8
_0-0_
  6
CONTINUOUS
 62
    4
 10
392372.5982910156
 20
279951.63177319168
 11
392372.5982910156
 21
279951.63177319168
  0
LINE
  8
_0-0_
  6
CONTINUOUS
 62
    4
 10
393272.5982910156
 20
279951.63177319168
 11
393272.5982910156
 21
279951.63177319168
  0
LINE
  8
_0-0_
  6
CONTINUOUS
 62
    4
 10
393272.5982910156
 20
279951.63177319168
 11
393272.55881713674
 21
279952.0829616916
  0
LINE
  8
_0-0_
  6
CONTINUOUS
 62
    4
 10
393272.55881713674
 20
279952.0829616916
 11
393272.44159489404
 21
279952.52044105722
  0
LINE
  8
_0-0_
  6
CONTINUOUS
 62
    4
 10
393272.44159489404
 20
279952.52044105722
 11
393272.25018602598
 21
279952.93091869948
  0
LINE
  8
_0-0_
  6
CONTINUOUS
 62
    4
 10
393272.25018602598
 20
279952.93091869948
 11
393271.99040639412
 21
279953.30192246288
  0
LINE
  8
_0-0_
  6
CONTINUOUS
 62
    4
 10
393271.99040639412
 20
279953.30192246288
 11
393271.6701492712
 21
279953.6221795858
  0
LINE
  8
_0-0_
  6
CONTINUOUS
 62
    4
 10
393271.6701492712
 20
279953.6221795858
 11
393271.2991455078
 21
279953.88195921766
  0
LINE
  8
_0-0_
  6
CONTINUOUS
 62
    4
 10
393271.2991455078
 20
279953.88195921766
 11
393270.88866786554
 21
279954.07336808572
  0
LINE
  8
_0-0_
  6
CONTINUOUS
 62
    4
 10
393270.88866786554
 20
279954.07336808572
 11
393270.45118849992
 21
279954.19059032842
  0
LINE
  8
_0-0_
  6
CONTINUOUS
 62
    4
 10
393270.45118849992
 20
279954.19059032842
 11
393270
 21
279954.23006420728
  0
LINE
  8
_0-0_
  6
CONTINUOUS
 62
    4
 10
393270
 20
279954.23006420728
 11
393269.54881150008
 21
279954.19059032842
  0
LINE
  8
_0-0_
  6
CONTINUOUS
 62
    4
 10
393269.54881150008
 20
279954.19059032842
 11
393269.11133213446
 21
279954.07336808572
  0
LINE
  8
_0-0_
  6
CONTINUOUS
 62
    4
 10
393269.11133213446
 20
279954.07336808572
 11
393268.7008544922
 21
279953.88195921766
  0
LINE
  8
_0-0_
  6
CONTINUOUS
 62
    4
 10
393268.7008544922
 20
279953.88195921766
 11
393268.3298507288
 21
279953.6221795858
  0
LINE
  8
_0-0_
  6
CONTINUOUS
 62
    4
 10
393268.3298507288
 20
279953.6221795858
 11
393268.00959360588
 21
279953.30192246288
  0
LINE
  8
_0-0_
  6
CONTINUOUS
 62
    4
 10
393268.00959360588
 20
279953.30192246288
 11
393267.74981397402
 21
279952.93091869948
  0
LINE
  8
_0-0_
  6
CONTINUOUS
 62
    4
 10
393267.74981397402
 20
279952.93091869948
 11
393267.55840510596
 21
279952.52044105722
  0
LINE
  8
_0-0_
  6
CONTINUOUS
 62
    4
 10
393267.55840510596
 20
279952.52044105722
 11
393267.44118286326
 21
279952.0829616916
  0
LINE
  8
_0-0_
  6
CONTINUOUS
 62
    4
 10
393267.44118286326
 20
279952.0829616916
 11
393267.4017089844
 21
279951.63177319168
  0
LINE
  8
_0-0_
  6
CONTINUOUS
 62
    4
 10
393267.4017089844
 20
279951.63177319168
 11
393267.44118286326
 21
279951.18058469176
  0
LINE
  8
_0-0_
  6
CONTINUOUS
 62
    4
 10
393267.44118286326
 20
279951.18058469176
 11
393267.55840510596
 21
279950.74310532614
  0
LINE
  8
_0-0_
  6
CONTINUOUS
 62
    4
 10
393267.55840510596
 20
279950.74310532614
 11
393267.74981397402
 21
279950.33262768388
  0
LINE
  8
_0-0_
  6
CONTINUOUS
 62
    4
 10
393267.74981397402
 20
279950.33262768388
 11
393268.00959360588
 21
279949.96162392048
  0
LINE
  8
_0-0_
  6
CONTINUOUS
 62
    4
 10
393268.00959360588
 20
279949.96162392048
 11
393268.3298507288
 21
279949.64136679756
  0
LINE
  8
_0-0_
  6
CONTINUOUS
 62
    4
 10
393268.3298507288
 20
279949.64136679756
 11
393268.7008544922
 21
279949.3815871657
  0
LINE
  8
_0-0_
  6
CONTINUOUS
 62
    4
 10
393268.7008544922
 20
279949.3815871657
 11
393269.11133213446
 21
279949.19017829763
  0
LINE
  8
_0-0_
  6
CONTINUOUS
 62
    4
 10
393269.11133213446
 20
279949.19017829763
 11
393269.54881150008
 21
279949.07295605494
  0
LINE
  8
_0-0_
  6
CONTINUOUS
 62
    4
 10
393269.54881150008
 20
279949.07295605494
 11
393270
 21
279949.03348217608
  0
LINE
  8
_0-0_
  6
CONTINUOUS
 62
    4
 10
393270
 20
279949.03348217608
 11
393270.45118849992
 21
279949.07295605494
  0
LINE
  8
_0-0_
  6
CONTINUOUS
 62
    4
 10
393270.45118849992
 20
279949.07295605494
 11
393270.88866786554
 21
279949.19017829763
  0
LINE
  8
_0-0_
  6
CONTINUOUS
 62
    4
 10
393270.88866786554
 20
279949.19017829763
 11
393271.2991455078
 21
279949.3815871657
  0
LINE
  8
_0-0_
  6
CONTINUOUS
 62
    4
 10
393271.2991455078
 20
279949.3815871657
 11
393271.6701492712
 21
279949.64136679756
  0
LINE
  8
_0-0_
  6
CONTINUOUS
 62
    4
 10
393271.6701492712
 20
279949.64136679756
 11
393271.99040639412
 21
279949.96162392048
  0
LINE
  8
_0-0_
  6
CONTINUOUS
 62
    4
 10
393271.99040639412
 20
279949.96162392048
 11
393272.25018602598
 21
279950.33262768388
  0
LINE
  8
_0-0_
  6
CONTINUOUS
 62
    4
 10
393272.25018602598
 20
279950.33262768388
 11
393272.44159489404
 21
279950.74310532614
  0
LINE
  8
_0-0_
  6
CONTINUOUS
 62
    4
 10
393272.44159489404
 20
279950.74310532614
 11
393272.55881713674
 21
279951.18058469176
  0
LINE
  8
_0-0_
  6
CONTINUOUS
 62
    4
 10
393272.55881713674
 20
279951.18058469176
 11
393272.5982910156
 21
279951.63177319168
  0
LINE
  8
_0-0_
  6
CONTINUOUS
 62
    4
 10
393272.5982910156
 20
279951.63177319168
 11
393272.5982910156
 21
279951.63177319168
  0
TEXT
  8
_0-0_
 62
    7
 10
392793.70703125
 20
279952.63177319168
 40
35.842222222222226
 41
0.9781003937007872
 50
0
  1
900
  0
LINE
  8
_0-0_
  6
CONTINUOUS
 62
    4
 10
393320
 20
280951.63177319168
 11
393370
 21
280951.63177319168
  0
LINE
  8
_0-0_
  6
CONTINUOUS
 62
    4
 10
393320
 20
280051.63177319168
 11
393370
 21
280051.63177319168
  0
LINE
  8
_0-0_
  6
CONTINUOUS
 62
    4
 10
393370
 20
280951.63177319168
 11
393370
 21
280051.63177319168
  0
LINE
  8
_0-0_
  6
CONTINUOUS
 62
    4
 10
393372.5982910156
 20
280951.63177319168
 11
393372.5982910156
 21
280951.63177319168
  0
LINE
  8
_0-0_
  6
CONTINUOUS
 62
    4
 10
393372.5982910156
 20
280951.63177319168
 11
393372.55881713674
 21
280952.0829616916
  0
LINE
  8
_0-0_
  6
CONTINUOUS
 62
    4
 10
393372.55881713674
 20
280952.0829616916
 11
393372.44159489404
 21
280952.52044105722
  0
LINE
  8
_0-0_
  6
CONTINUOUS
 62
    4
 10
393372.44159489404
 20
280952.52044105722
 11
393372.25018602598
 21
280952.93091869948
  0
LINE
  8
_0-0_
  6
CONTINUOUS
 62
    4
 10
393372.25018602598
 20
280952.93091869948
 11
393371.99040639412
 21
280953.30192246288
  0
LINE
  8
_0-0_
  6
CONTINUOUS
 62
    4
 10
393371.99040639412
 20
280953.30192246288
 11
393371.6701492712
 21
280953.6221795858
  0
LINE
  8
_0-0_
  6
CONTINUOUS
 62
    4
 10
393371.6701492712
 20
280953.6221795858
 11
393371.2991455078
 21
280953.88195921766
  0
LINE
  8
_0-0_
  6
CONTINUOUS
 62
    4
 10
393371.2991455078
 20
280953.88195921766
 11
393370.88866786554
 21
280954.07336808572
  0
LINE
  8
_0-0_
  6
CONTINUOUS
 62
    4
 10
393370.88866786554
 20
280954.07336808572
 11
393370.45118849992
 21
280954.19059032842
  0
LINE
  8
_0-0_
  6
CONTINUOUS
 62
    4
 10
393370.45118849992
 20
280954.19059032842
 11
393370
 21
280954.23006420728
  0
LINE
  8
_0-0_
  6
CONTINUOUS
 62
    4
 10
393370
 20
280954.23006420728
 11
393369.54881150008
 21
280954.19059032842
  0
LINE
  8
_0-0_
  6
CONTINUOUS
 62
    4
 10
393369.54881150008
 20
280954.19059032842
 11
393369.11133213446
 21
280954.07336808572
  0
LINE
  8
_0-0_
  6
CONTINUOUS
 62
    4
 10
393369.11133213446
 20
280954.07336808572
 11
393368.7008544922
 21
280953.88195921766
  0
LINE
  8
_0-0_
  6
CONTINUOUS
 62
    4
 10
393368.7008544922
 20
280953.88195921766
 11
393368.3298507288
 21
280953.6221795858
  0
LINE
  8
_0-0_
  6
CONTINUOUS
 62
    4
 10
393368.3298507288
 20
280953.6221795858
 11
393368.00959360588
 21
280953.30192246288
  0
LINE
  8
_0-0_
  6
CONTINUOUS
 62
    4
 10
393368.00959360588
 20
280953.30192246288
 11
393367.74981397402
 21
280952.93091869948
  0
LINE
  8
_0-0_
  6
CONTINUOUS
 62
    4
 10
393367.74981397402
 20
280952.93091869948
 11
393367.55840510596
 21
280952.52044105722
  0
LINE
  8
_0-0_
  6
CONTINUOUS
 62
    4
 10
393367.55840510596
 20
280952.52044105722
 11
393367.44118286326
 21
280952.0829616916
  0
LINE
  8
_0-0_
  6
CONTINUOUS
 62
    4
 10
393367.44118286326
 20
280952.0829616916
 11
393367.4017089844
 21
280951.63177319168
  0
LINE
  8
_0-0_
  6
CONTINUOUS
 62
    4
 10
393367.4017089844
 20
280951.63177319168
 11
393367.44118286326
 21
280951.18058469176
  0
LINE
  8
_0-0_
  6
CONTINUOUS
 62
    4
 10
393367.44118286326
 20
280951.18058469176
 11
393367.55840510596
 21
280950.74310532614
  0
LINE
  8
_0-0_
  6
CONTINUOUS
 62
    4
 10
393367.55840510596
 20
280950.74310532614
 11
393367.74981397402
 21
280950.33262768388
  0
LINE
  8
_0-0_
  6
CONTINUOUS
 62
    4
 10
393367.74981397402
 20
280950.33262768388
 11
393368.00959360588
 21
280949.96162392048
  0
LINE
  8
_0-0_
  6
CONTINUOUS
 62
    4
 10
393368.00959360588
 20
280949.96162392048
 11
393368.3298507288
 21
280949.64136679756
  0
LINE
  8
_0-0_
  6
CONTINUOUS
 62
    4
 10
393368.3298507288
 20
280949.64136679756
 11
393368.7008544922
 21
280949.3815871657
  0
LINE
  8
_0-0_
  6
CONTINUOUS
 62
    4
 10
393368.7008544922
 20
280949.3815871657
 11
393369.11133213446
 21
280949.19017829763
  0
LINE
  8
_0-0_
  6
CONTINUOUS
 62
    4
 10
393369.11133213446
 20
280949.19017829763
 11
393369.54881150008
 21
280949.07295605494
  0
LINE
  8
_0-0_
  6
CONTINUOUS
 62
    4
 10
393369.54881150008
 20
280949.07295605494
 11
393370
 21
280949.03348217608
  0
LINE
  8
_0-0_
  6
CONTINUOUS
 62
    4
 10
393370
 20
280949.03348217608
 11
393370.45118849992
 21
280949.07295605494
  0
LINE
  8
_0-0_
  6
CONTINUOUS
 62
    4
 10
393370.45118849992
 20
280949.07295605494
 11
393370.88866786554
 21
280949.19017829763
  0
LINE
  8
_0-0_
  6
CONTINUOUS
 62
    4
 10
393370.88866786554
 20
280949.19017829763
 11
393371.2991455078
 21
280949.3815871657
  0
LINE
  8
_0-0_
  6
CONTINUOUS
 62
    4
 10
393371.2991455078
 20
280949.3815871657
 11
393371.6701492712
 21
280949.64136679756
  0
LINE
  8
_0-0_
  6
CONTINUOUS
 62
    4
 10
393371.6701492712
 20
280949.64136679756
 11
393371.99040639412
 21
280949.96162392048
  0
LINE
  8
_0-0_
  6
CONTINUOUS
 62
    4
 10
393371.99040639412
 20
280949.96162392048
 11
393372.25018602598
 21
280950.33262768388
  0
LINE
  8
_0-0_
  6
CONTINUOUS
 62
    4
 10
393372.25018602598
 20
280950.33262768388
 11
393372.44159489404
 21
280950.74310532614
  0
LINE
  8
_0-0_
  6
CONTINUOUS
 62
    4
 10
393372.44159489404
 20
280950.74310532614
 11
393372.55881713674
 21
280951.18058469176
  0
LINE
  8
_0-0_
  6
CONTINUOUS
 62
    4
 10
393372.55881713674
 20
280951.18058469176
 11
393372.5982910156
 21
280951.63177319168
  0
LINE
  8
_0-0_
  6
CONTINUOUS
 62
    4
 10
393372.5982910156
 20
280951.63177319168
 11
393372.5982910156
 21
280951.63177319168
  0
LINE
  8
_0-0_
  6
CONTINUOUS
 62
    4
 10
393372.5982910156
 20
280051.63177319168
 11
393372.5982910156
 21
280051.63177319168
  0
LINE
  8
_0-0_
  6
CONTINUOUS
 62
    4
 10
393372.5982910156
 20
280051.63177319168
 11
393372.55881713674
 21
280052.0829616916
  0
LINE
  8
_0-0_
  6
CONTINUOUS
 62
    4
 10
393372.55881713674
 20
280052.0829616916
 11
393372.44159489404
 21
280052.52044105722
  0
LINE
  8
_0-0_
  6
CONTINUOUS
 62
    4
 10
393372.44159489404
 20
280052.52044105722
 11
393372.25018602598
 21
280052.93091869948
  0
LINE
  8
_0-0_
  6
CONTINUOUS
 62
    4
 10
393372.25018602598
 20
280052.93091869948
 11
393371.99040639412
 21
280053.30192246288
  0
LINE
  8
_0-0_
  6
CONTINUOUS
 62
    4
 10
393371.99040639412
 20
280053.30192246288
 11
393371.6701492712
 21
280053.6221795858
  0
LINE
  8
_0-0_
  6
CONTINUOUS
 62
    4
 10
393371.6701492712
 20
280053.6221795858
 11
393371.2991455078
 21
280053.88195921766
  0
LINE
  8
_0-0_
  6
CONTINUOUS
 62
    4
 10
393371.2991455078
 20
280053.88195921766
 11
393370.88866786554
 21
280054.07336808572
  0
LINE
  8
_0-0_
  6
CONTINUOUS
 62
    4
 10
393370.88866786554
 20
280054.07336808572
 11
393370.45118849992
 21
280054.19059032842
  0
LINE
  8
_0-0_
  6
CONTINUOUS
 62
    4
 10
393370.45118849992
 20
280054.19059032842
 11
393370
 21
280054.23006420728
  0
LINE
  8
_0-0_
  6
CONTINUOUS
 62
    4
 10
393370
 20
280054.23006420728
 11
393369.54881150008
 21
280054.19059032842
  0
LINE
  8
_0-0_
  6
CONTINUOUS
 62
    4
 10
393369.54881150008
 20
280054.19059032842
 11
393369.11133213446
 21
280054.07336808572
  0
LINE
  8
_0-0_
  6
CONTINUOUS
 62
    4
 10
393369.11133213446
 20
280054.07336808572
 11
393368.7008544922
 21
280053.88195921766
  0
LINE
  8
_0-0_
  6
CONTINUOUS
 62
    4
 10
393368.7008544922
 20
280053.88195921766
 11
393368.3298507288
 21
280053.6221795858
  0
LINE
  8
_0-0_
  6
CONTINUOUS
 62
    4
 10
393368.3298507288
 20
280053.6221795858
 11
393368.00959360588
 21
280053.30192246288
  0
LINE
  8
_0-0_
  6
CONTINUOUS
 62
    4
 10
393368.00959360588
 20
280053.30192246288
 11
393367.74981397402
 21
280052.93091869948
  0
LINE
  8
_0-0_
  6
CONTINUOUS
 62
    4
 10
393367.74981397402
 20
280052.93091869948
 11
393367.55840510596
 21
280052.52044105722
  0
LINE
  8
_0-0_
  6
CONTINUOUS
 62
    4
 10
393367.55840510596
 20
280052.52044105722
 11
393367.44118286326
 21
280052.0829616916
  0
LINE
  8
_0-0_
  6
CONTINUOUS
 62
    4
 10
393367.44118286326
 20
280052.0829616916
 11
393367.4017089844
 21
280051.63177319168
  0
LINE
  8
_0-0_
  6
CONTINUOUS
 62
    4
 10
393367.4017089844
 20
280051.63177319168
 11
393367.44118286326
 21
280051.18058469176
  0
LINE
  8
_0-0_
  6
CONTINUOUS
 62
    4
 10
393367.44118286326
 20
280051.18058469176
 11
393367.55840510596
 21
280050.74310532614
  0
LINE
  8
_0-0_
  6
CONTINUOUS
 62
    4
 10
393367.55840510596
 20
280050.74310532614
 11
393367.74981397402
 21
280050.33262768388
  0
LINE
  8
_0-0_
  6
CONTINUOUS
 62
    4
 10
393367.74981397402
 20
280050.33262768388
 11
393368.00959360588
 21
280049.96162392048
  0
LINE
  8
_0-0_
  6
CONTINUOUS
 62
    4
 10
393368.00959360588
 20
280049.96162392048
 11
393368.3298507288
 21
280049.64136679756
  0
LINE
  8
_0-0_
  6
CONTINUOUS
 62
    4
 10
393368.3298507288
 20
280049.64136679756
 11
393368.7008544922
 21
280049.3815871657
  0
LINE
  8
_0-0_
  6
CONTINUOUS
 62
    4
 10
393368.7008544922
 20
280049.3815871657
 11
393369.11133213446
 21
280049.19017829763
  0
LINE
  8
_0-0_
  6
CONTINUOUS
 62
    4
 10
393369.11133213446
 20
280049.19017829763
 11
393369.54881150008
 21
280049.07295605494
  0
LINE
  8
_0-0_
  6
CONTINUOUS
 62
    4
 10
393369.54881150008
 20
280049.07295605494
 11
393370
 21
280049.03348217608
  0
LINE
  8
_0-0_
  6
CONTINUOUS
 62
    4
 10
393370
 20
280049.03348217608
 11
393370.45118849992
 21
280049.07295605494
  0
LINE
  8
_0-0_
  6
CONTINUOUS
 62
    4
 10
393370.45118849992
 20
280049.07295605494
 11
393370.88866786554
 21
280049.19017829763
  0
LINE
  8
_0-0_
  6
CONTINUOUS
 62
    4
 10
393370.88866786554
 20
280049.19017829763
 11
393371.2991455078
 21
280049.3815871657
  0
LINE
  8
_0-0_
  6
CONTINUOUS
 62
    4
 10
393371.2991455078
 20
280049.3815871657
 11
393371.6701492712
 21
280049.64136679756
  0
LINE
  8
_0-0_
  6
CONTINUOUS
 62
    4
 10
393371.6701492712
 20
280049.64136679756
 11
393371.99040639412
 21
280049.96162392048
  0
LINE
  8
_0-0_
  6
CONTINUOUS
 62
    4
 10
393371.99040639412
 20
280049.96162392048
 11
393372.25018602598
 21
280050.33262768388
  0
LINE
  8
_0-0_
  6
CONTINUOUS
 62
    4
 10
393372.25018602598
 20
280050.33262768388
 11
393372.44159489404
 21
280050.74310532614
  0
LINE
  8
_0-0_
  6
CONTINUOUS
 62
    4
 10
393372.44159489404
 20
280050.74310532614
 11
393372.55881713674
 21
280051.18058469176
  0
LINE
  8
_0-0_
  6
CONTINUOUS
 62
    4
 10
393372.55881713674
 20
280051.18058469176
 11
393372.5982910156
 21
280051.63177319168
  0
LINE
  8
_0-0_
  6
CONTINUOUS
 62
    4
 10
393372.5982910156
 20
280051.63177319168
 11
393372.5982910156
 21
280051.63177319168
  0
TEXT
  8
_0-0_
 62
    7
 10
393369
 20
280475.33880444168
 40
35.842222222222226
 41
0.9781003937007872
 50
90
  1
900
  0
LINE
  8
_0-0_
  6
CONTINUOUS
 62
    4
 10
393517.48769393074
 20
280001.63177319168
 11
393517.48769393074
 21
279951.63177319168
  0
LINE
  8
_0-0_
  6
CONTINUOUS
 62
    4
 10
393467.48769393074
 20
280001.63177319168
 11
393467.48769393074
 21
279951.63177319168
  0
LINE
  8
_0-0_
  6
CONTINUOUS
 62
    4
 10
393517.48769393074
 20
279951.63177319168
 11
393467.48769393074
 21
279951.63177319168
  0
LINE
  8
_0-0_
  6
CONTINUOUS
 62
    4
 10
393520.08598494634
 20
279951.63177319168
 11
393520.08598494634
 21
279951.63177319168
  0
LINE
  8
_0-0_
  6
CONTINUOUS
 62
    4
 10
393520.08598494634
 20
279951.63177319168
 11
393520.04651106748
 21
279952.0829616916
  0
LINE
  8
_0-0_
  6
CONTINUOUS
 62
    4
 10
393520.04651106748
 20
279952.0829616916
 11
393519.92928882479
 21
279952.52044105722
  0
LINE
  8
_0-0_
  6
CONTINUOUS
 62
    4
 10
393519.92928882479
 20
279952.52044105722
 11
393519.73787995672
 21
279952.93091869948
  0
LINE
  8
_0-0_
  6
CONTINUOUS
 62
    4
 10
393519.73787995672
 20
279952.93091869948
 11
393519.47810032486
 21
279953.30192246288
  0
LINE
  8
_0-0_
  6
CONTINUOUS
 62
    4
 10
393519.47810032486
 20
279953.30192246288
 11
393519.15784320195
 21
279953.6221795858
  0
LINE
  8
_0-0_
  6
CONTINUOUS
 62
    4
 10
393519.15784320195
 20
279953.6221795858
 11
393518.78683943854
 21
279953.88195921766
  0
LINE
  8
_0-0_
  6
CONTINUOUS
 62
    4
 10
393518.78683943854
 20
279953.88195921766
 11
393518.37636179628
 21
279954.07336808572
  0
LINE
  8
_0-0_
  6
CONTINUOUS
 62
    4
 10
393518.37636179628
 20
279954.07336808572
 11
393517.93888243067
 21
279954.19059032842
  0
LINE
  8
_0-0_
  6
CONTINUOUS
 62
    4
 10
393517.93888243067
 20
279954.19059032842
 11
393517.48769393074
 21
279954.23006420728
  0
LINE
  8
_0-0_
  6
CONTINUOUS
 62
    4
 10
393517.48769393074
 20
279954.23006420728
 11
393517.03650543082
 21
279954.19059032842
  0
LINE
  8
_0-0_
  6
CONTINUOUS
 62
    4
 10
393517.03650543082
 20
279954.19059032842
 11
393516.5990260652
 21
279954.07336808572
  0
LINE
  8
_0-0_
  6
CONTINUOUS
 62
    4
 10
393516.5990260652
 20
279954.07336808572
 11
393516.18854842294
 21
279953.88195921766
  0
LINE
  8
_0-0_
  6
CONTINUOUS
 62
    4
 10
393516.18854842294
 20
279953.88195921766
 11
393515.81754465954
 21
279953.6221795858
  0
LINE
  8
_0-0_
  6
CONTINUOUS
 62
    4
 10
393515.81754465954
 20
279953.6221795858
 11
393515.49728753662
 21
279953.30192246288
  0
LINE
  8
_0-0_
  6
CONTINUOUS
 62
    4
 10
393515.49728753662
 20
279953.30192246288
 11
393515.23750790476
 21
279952.93091869948
  0
LINE
  8
_0-0_
  6
CONTINUOUS
 62
    4
 10
393515.23750790476
 20
279952.93091869948
 11
393515.0460990367
 21
279952.52044105722
  0
LINE
  8
_0-0_
  6
CONTINUOUS
 62
    4
 10
393515.0460990367
 20
279952.52044105722
 11
393514.928876794
 21
279952.0829616916
  0
LINE
  8
_0-0_
  6
CONTINUOUS
 62
    4
 10
393514.928876794
 20
279952.0829616916
 11
393514.88940291514
 21
279951.63177319168
  0
LINE
  8
_0-0_
  6
CONTINUOUS
 62
    4
 10
393514.88940291514
 20
279951.63177319168
 11
393514.928876794
 21
279951.18058469176
  0
LINE
  8
_0-0_
  6
CONTINUOUS
 62
    4
 10
393514.928876794
 20
279951.18058469176
 11
393515.0460990367
 21
279950.74310532614
  0
LINE
  8
_0-0_
  6
CONTINUOUS
 62
    4
 10
393515.0460990367
 20
279950.74310532614
 11
393515.23750790476
 21
279950.33262768388
  0
LINE
  8
_0-0_
  6
CONTINUOUS
 62
    4
 10
393515.23750790476
 20
279950.33262768388
 11
393515.49728753662
 21
279949.96162392048
  0
LINE
  8
_0-0_
  6
CONTINUOUS
 62
    4
 10
393515.49728753662
 20
279949.96162392048
 11
393515.81754465954
 21
279949.64136679756
  0
LINE
  8
_0-0_
  6
CONTINUOUS
 62
    4
 10
393515.81754465954
 20
279949.64136679756
 11
393516.18854842294
 21
279949.3815871657
  0
LINE
  8
_0-0_
  6
CONTINUOUS
 62
    4
 10
393516.18854842294
 20
279949.3815871657
 11
393516.5990260652
 21
279949.19017829763
  0
LINE
  8
_0-0_
  6
CONTINUOUS
 62
    4
 10
393516.5990260652
 20
279949.19017829763
 11
393517.03650543082
 21
279949.07295605494
  0
LINE
  8
_0-0_
  6
CONTINUOUS
 62
    4
 10
393517.03650543082
 20
279949.07295605494
 11
393517.48769393074
 21
279949.03348217608
  0
LINE
  8
_0-0_
  6
CONTINUOUS
 62
    4
 10
393517.48769393074
 20
279949.03348217608
 11
393517.93888243067
 21
279949.07295605494
  0
LINE
  8
_0-0_
  6
CONTINUOUS
 62
    4
 10
393517.93888243067
 20
279949.07295605494
 11
393518.37636179628
 21
279949.19017829763
  0
LINE
  8
_0-0_
  6
CONTINUOUS
 62
    4
 10
393518.37636179628
 20
279949.19017829763
 11
393518.78683943854
 21
279949.3815871657
  0
LINE
  8
_0-0_
  6
CONTINUOUS
 62
    4
 10
393518.78683943854
 20
279949.3815871657
 11
393519.15784320195
 21
279949.64136679756
  0
LINE
  8
_0-0_
  6
CONTINUOUS
 62
    4
 10
393519.15784320195
 20
279949.64136679756
 11
393519.47810032486
 21
279949.96162392048
  0
LINE
  8
_0-0_
  6
CONTINUOUS
 62
    4
 10
393519.47810032486
 20
279949.96162392048
 11
393519.73787995672
 21
279950.33262768388
  0
LINE
  8
_0-0_
  6
CONTINUOUS
 62
    4
 10
393519.73787995672
 20
279950.33262768388
 11
393519.92928882479
 21
279950.74310532614
  0
LINE
  8
_0-0_
  6
CONTINUOUS
 62
    4
 10
393519.92928882479
 20
279950.74310532614
 11
393520.04651106748
 21
279951.18058469176
  0
LINE
  8
_0-0_
  6
CONTINUOUS
 62
    4
 10
393520.04651106748
 20
279951.18058469176
 11
393520.08598494634
 21
279951.63177319168
  0
LINE
  8
_0-0_
  6
CONTINUOUS
 62
    4
 10
393520.08598494634
 20
279951.63177319168
 11
393520.08598494634
 21
279951.63177319168
  0
LINE
  8
_0-0_
  6
CONTINUOUS
 62
    4
 10
393470.08598494634
 20
279951.63177319168
 11
393470.08598494634
 21
279951.63177319168
  0
LINE
  8
_0-0_
  6
CONTINUOUS
 62
    4
 10
393470.08598494634
 20
279951.63177319168
 11
393470.04651106748
 21
279952.0829616916
  0
LINE
  8
_0-0_
  6
CONTINUOUS
 62
    4
 10
393470.04651106748
 20
279952.0829616916
 11
393469.92928882479
 21
279952.52044105722
  0
LINE
  8
_0-0_
  6
CONTINUOUS
 62
    4
 10
393469.92928882479
 20
279952.52044105722
 11
393469.73787995672
 21
279952.93091869948
  0
LINE
  8
_0-0_
  6
CONTINUOUS
 62
    4
 10
393469.73787995672
 20
279952.93091869948
 11
393469.47810032486
 21
279953.30192246288
  0
LINE
  8
_0-0_
  6
CONTINUOUS
 62
    4
 10
393469.47810032486
 20
279953.30192246288
 11
393469.15784320195
 21
279953.6221795858
  0
LINE
  8
_0-0_
  6
CONTINUOUS
 62
    4
 10
393469.15784320195
 20
279953.6221795858
 11
393468.78683943854
 21
279953.88195921766
  0
LINE
  8
_0-0_
  6
CONTINUOUS
 62
    4
 10
393468.78683943854
 20
279953.88195921766
 11
393468.37636179628
 21
279954.07336808572
  0
LINE
  8
_0-0_
  6
CONTINUOUS
 62
    4
 10
393468.37636179628
 20
279954.07336808572
 11
393467.93888243067
 21
279954.19059032842
  0
LINE
  8
_0-0_
  6
CONTINUOUS
 62
    4
 10
393467.93888243067
 20
279954.19059032842
 11
393467.48769393074
 21
279954.23006420728
  0
LINE
  8
_0-0_
  6
CONTINUOUS
 62
    4
 10
393467.48769393074
 20
279954.23006420728
 11
393467.03650543082
 21
279954.19059032842
  0
LINE
  8
_0-0_
  6
CONTINUOUS
 62
    4
 10
393467.03650543082
 20
279954.19059032842
 11
393466.5990260652
 21
279954.07336808572
  0
LINE
  8
_0-0_
  6
CONTINUOUS
 62
    4
 10
393466.5990260652
 20
279954.07336808572
 11
393466.18854842294
 21
279953.88195921766
  0
LINE
  8
_0-0_
  6
CONTINUOUS
 62
    4
 10
393466.18854842294
 20
279953.88195921766
 11
393465.81754465954
 21
279953.6221795858
  0
LINE
  8
_0-0_
  6
CONTINUOUS
 62
    4
 10
393465.81754465954
 20
279953.6221795858
 11
393465.49728753662
 21
279953.30192246288
  0
LINE
  8
_0-0_
  6
CONTINUOUS
 62
    4
 10
393465.49728753662
 20
279953.30192246288
 11
393465.23750790476
 21
279952.93091869948
  0
LINE
  8
_0-0_
  6
CONTINUOUS
 62
    4
 10
393465.23750790476
 20
279952.93091869948
 11
393465.0460990367
 21
279952.52044105722
  0
LINE
  8
_0-0_
  6
CONTINUOUS
 62
    4
 10
393465.0460990367
 20
279952.52044105722
 11
393464.928876794
 21
279952.0829616916
  0
LINE
  8
_0-0_
  6
CONTINUOUS
 62
    4
 10
393464.928876794
 20
279952.0829616916
 11
393464.88940291514
 21
279951.63177319168
  0
LINE
  8
_0-0_
  6
CONTINUOUS
 62
    4
 10
393464.88940291514
 20
279951.63177319168
 11
393464.928876794
 21
279951.18058469176
  0
LINE
  8
_0-0_
  6
CONTINUOUS
 62
    4
 10
393464.928876794
 20
279951.18058469176
 11
393465.0460990367
 21
279950.74310532614
  0
LINE
  8
_0-0_
  6
CONTINUOUS
 62
    4
 10
393465.0460990367
 20
279950.74310532614
 11
393465.23750790476
 21
279950.33262768388
  0
LINE
  8
_0-0_
  6
CONTINUOUS
 62
    4
 10
393465.23750790476
 20
279950.33262768388
 11
393465.49728753662
 21
279949.96162392048
  0
LINE
  8
_0-0_
  6
CONTINUOUS
 62
    4
 10
393465.49728753662
 20
279949.96162392048
 11
393465.81754465954
 21
279949.64136679756
  0
LINE
  8
_0-0_
  6
CONTINUOUS
 62
    4
 10
393465.81754465954
 20
279949.64136679756
 11
393466.18854842294
 21
279949.3815871657
  0
LINE
  8
_0-0_
  6
CONTINUOUS
 62
    4
 10
393466.18854842294
 20
279949.3815871657
 11
393466.5990260652
 21
279949.19017829763
  0
LINE
  8
_0-0_
  6
CONTINUOUS
 62
    4
 10
393466.5990260652
 20
279949.19017829763
 11
393467.03650543082
 21
279949.07295605494
  0
LINE
  8
_0-0_
  6
CONTINUOUS
 62
    4
 10
393467.03650543082
 20
279949.07295605494
 11
393467.48769393074
 21
279949.03348217608
  0
LINE
  8
_0-0_
  6
CONTINUOUS
 62
    4
 10
393467.48769393074
 20
279949.03348217608
 11
393467.93888243067
 21
279949.07295605494
  0
LINE
  8
_0-0_
  6
CONTINUOUS
 62
    4
 10
393467.93888243067
 20
279949.07295605494
 11
393468.37636179628
 21
279949.19017829763
  0
LINE
  8
_0-0_
  6
CONTINUOUS
 62
    4
 10
393468.37636179628
 20
279949.19017829763
 11
393468.78683943854
 21
279949.3815871657
  0
LINE
  8
_0-0_
  6
CONTINUOUS
 62
    4
 10
393468.78683943854
 20
279949.3815871657
 11
393469.15784320195
 21
279949.64136679756
  0
LINE
  8
_0-0_
  6
CONTINUOUS
 62
    4
 10
393469.15784320195
 20
279949.64136679756
 11
393469.47810032486
 21
279949.96162392048
  0
LINE
  8
_0-0_
  6
CONTINUOUS
 62
    4
 10
393469.47810032486
 20
279949.96162392048
 11
393469.73787995672
 21
279950.33262768388
  0
LINE
  8
_0-0_
  6
CONTINUOUS
 62
    4
 10
393469.73787995672
 20
279950.33262768388
 11
393469.92928882479
 21
279950.74310532614
  0
LINE
  8
_0-0_
  6
CONTINUOUS
 62
    4
 10
393469.92928882479
 20
279950.74310532614
 11
393470.04651106748
 21
279951.18058469176
  0
LINE
  8
_0-0_
  6
CONTINUOUS
 62
    4
 10
393470.04651106748
 20
279951.18058469176
 11
393470.08598494634
 21
279951.63177319168
  0
LINE
  8
_0-0_
  6
CONTINUOUS
 62
    4
 10
393470.08598494634
 20
279951.63177319168
 11
393470.08598494634
 21
279951.63177319168
  0
TEXT
  8
_0-0_
 62
    7
 10
393474.95904809743
 20
279952.63177319168
 40
35.842222222222226
 41
0.9781003937007872
 50
0
  1
50
  0
TEXT
  8
_0-0_
 62
    7
 10
392708.07298177085
 20
281032.26393515663
 40
43.010666666666651
 41
0.9462939557981393
 50
0
  1
TILE 900-50
  0
ENDSEC
  0
EOF
